Make your own free website on Tripod.com

tab by Sven Magnus

                                  Bone Machine
                                




During verses: (Intro is drum-only)
||---------------|--------------|--------------|---------------||
||*--------------|--------------|--------------|--------------*|| Repeat
||*--5--5--5--5--|--------------|--3--3--3--3--|--------------*|| as needed
||---------------|--5--5--5--5--|--------------|--3--3--3--3---||



   During chorus:

|-----|-----|-----|-----|
|-----|-----|-----|-----|
|--5--|--3--|-----|-----|
|-----|-----|--1--|--3--|