Make your own free website on Tripod.com

I compiled this from various bits and pieces here and there, and tidied
it all up.

i make to claims to any of these - i just compiled it.

Additions / corrections etc gratefully received.

Tony Bowden

                               Cannonball

Intro:
        ---------------------------------------------------
        ---------------------------------------------------
        ---------------------------------------------------
        ---------------------------------------------------
        ---------------------------------------------------
        -1/5-5-5-5---1/5-5-5-5---1/11-11-11-11--6-6-6-6----

Verse:
        --6-6-6-6--------------
        --6-6-6-6--7-7-7-7-----
        --7-7-7-7--7-7-7-7-----
        --8-8-8-8--7-7-7-7-----
        --8-8-8-8--6-6-6-6-----
        --6-6-6-6--------------


with that slippery sounding riff,
        ---------------------------------
        ---------------------------------
        ---6/8/6-6/8/6-------------------
        ----------------6/8/6-6/8/6------
        ---------------------------------
        ---------------------------------

Chorus:
                                          (left-hand mute & strum fast)
        --6-6-6-6--------------------------x-x---
        --6-6-6-6--7-7-7-7-----13-13-13----x-x---
        --7-7-7-7--7-7-7-7-----13-13-13----x-x---
        --8-8-8-8--7-7-7-7-----13-13-13----x-x---
        --8-8-8-8--6-6-6-6-----11-11-11----x-x---
        --6-6-6-6--------------------------x-x---