Make your own free website on Tripod.com


I compiled this from various bits and pieces here and there, and tidied
it all up.

i make to claims to any of these - i just compiled it.

Additions / corrections etc gratefully received.

Tony Bowden



                              Divine Hammer

Main Riff:
        -10-10-10-11---10---
        -11-11-11-11---11---
        -10-10-10-10---10---
        --------------------
        --------------------
        --------------------

        Bb              Eb
        I'm just looking
                           Cm
        Just looking for a way around
        F                       Bb
        It disappears this near
        Eb                 Cm     F
        You're the rod I'm water

Chorus:
        Bb                   Eb         Cm      F
        I'm just looking for the divine hammer
        Bb
        One divine hammer
        Bb
        One divine hammer


Solo (over Bb F Eb chords):
        ----------------------------------------------
        ----------------------------------------------
        ----------------------------------------------
        -------8-10-12--12/10-10/8-8-7-8-7-7----------
        -6-8-10---------------------------------------
        ----------------------------------------------

        -----------------------------------------------------------
        ------------------------------------------------------------
        ---------------------------------------8-8/10-10-10/12-12/15
        -------8-10-12--12/10-10/8-8-7-8-7-8/10---------------------
        -6-8-10-----------------------------------------------------
        ------------------------------------------------------------