Make your own free website on Tripod.com

tab by Sven Magnus


                                Dig for fire
                               

There are two basic riffs. Listen to the song to know where they go.


|--------------|--------------|--------------|--------------|
|--------------|--------------|--------------|--------------|
|--0--0--------|--------------|--------------|--------------|
|--------------|--2--2--------|--0--0--0--0--|--2--2--------|


|--------------|--------------|--------------|--------------|
|--------------|--------------|--------------|--------------|
|--0--0-h2-----|--------------|--------------|--------------|
|-----------2--|--2--2--------|--0--0--0--0--|--2--2--------|