Make your own free website on Tripod.com

FORTUNATELY GONE by kim deal(The Breeders)

transcribed by Edmond Hum

           E
I wait for you

    G   
in heaven

         B
on this perfect string of love

               E
and drink your soup

    G
of magpies in a

B                               E
pottery bowl that looks as I am now

G                B
round, brown and warm.

              E
Chime on the rain, wet (?)

    G     B
an ankle, toes a-two  (?)

                E             G
sweetly as it drops upon your head

              B
just like it did today.

             E             G
Fortunately gone, ba-ba-ba-ba

           B
I wait for you.



solo:

--------------------------------------------------------------------
--------------------------------------------------------------------
--------------------------------------------------------------------
-----------------------------4--------------------------------------
--4-2-1-0----0-2-4-2-4-2-4/6---6------4-2-1-0---0-2-4-2-1-2---------
----------4-----------------------------------3---------------------

--------------------------------------------------------------------
--------------------------------------------------------------------
--------------------------------------------------------------------
--------------------------------------------------------------------
--2-1-2----0-2-4-2--1-1/2---2-2/4---4-4/6---6-6/7-------------------
--------3-----------------------------------------------------------


              E
Chime on the rain, wet (?)

    G     B
an ankle, toes a-two  (?)

                E             G
sweetly as it drops upon your head

              B
just like it did today.

             E             G
Fortunately gone, ba-ba-ba-ba

           B
I wait for you.

             E             G
Fortunately gone, ba-ba-ba-ba

           B
I wait for you.


 d-------------------------------------------------------
 a---6-7----2-4-2s9--------------------------------------
 e-------------------------------------------------------