Make your own free website on Tripod.com


I compiled this from various bits and pieces here and there, and tidied
it all up.

i make to claims to any of these - i just compiled it.

Additions / corrections etc gratefully received.

Tony Bowden



                                Hag


Over the intro and verse, play like so:
        -----------------------------------
        ---------------------7-7--6-6--4---
        ---------------------7-7--6-6--4---
        ---------------------7-7--6-6--4---
        -2--6--9----7/3------5-5--4-4--2---
        -----------------------------------

then:   All night    All night    All night
        
        F#                        B                     (strum)
        --2------------------------4----------------------
        --2------------------------4----------------------
        --3------------------------4----------------------
        --4------------------------4----------------------
        --4------------------------2----------------------
        --2-----------------------------------------------

        
        Under the stars  under their light

        F#                                              (strum) 
        --2----------------------------------------------
        --2----------------------------------------------
        --3----------------------------------------------
        --4----------------------------------------------
        --4----------------------------------------------
        --2----------------------------------------------


        All over the girl  only looks bright

        F#           E                              E7  (strum)           
        --2----------------------------------------------
        --2------------------------------------------3---
        --3-----------1------------------------------1---
        --4-----------2------------------------------2---
        --4-----------2------------------------------2---
        --2----------------------------------------------