Make your own free website on Tripod.com
WHERE IS MY MIND?
by PIXIES from Surfer Rosa

Tabbed by: faguiler@eic.ictnet.es

First 6 bars no bass.

     8 times
     E           C#          G#          A
G| |------------------------|------------------------|
D|4|*2--2--2--2-------------|-----------------------*|
A|4|*------------4--4--4--4-|-------------0--0--0--0*|
E| |------------------------|-4--4--4--4-------------|

   E                        B
|-------------------------|-------------------------|
|--2----------------------|-------------------------|
|-------------------------|-2--2--2--2-2--2-2-2-2---|
|-------------------------|-------------------------|



   7 times
|-------------------------|-------------------------|
|*-2--2--2--2-------------|------------------------*|
|*-------------4--4--4--4-|-------------0--0--0--0-*|
|-------------------------|-4--4--4--4--------------|

                             4 times
|-------------------------|-------------------------|
|--2----------------------|*-----------------------*|
|-------------------------|*-2--2--2--2-2--2-2-2-2-*|
|-------------------------|-------------------------|



   7 times:
|-------------------------|-------------------------|
|*-2--2--2--2-------------|------------------------*|
|*-------------4--4--4--4-|-------------0--0--0--0-*|
|-------------------------|-4--4--4--4--------------|

|-------------------------|-------------------------|
|--2----------------------|-------------------------|
|-------------------------|-2--2--2--2-2--2-2-2-2---|
|-------------------------|-------------------------|


   6 times
|-------------------------|--------------------------|
|*-2--2--2--2-------------|-------------------------*|
|*-------------4--4--4--4-|-------------0--0-0-0--0-*|
|-------------------------|-4--4--4--4---------------|

|-------------------------|--------------------------|
|--2--2--2--2-------------|--------------------------|
|--------------4--4--4--4-|--------------------------|
|-------------------------|-4--4---------------------|