Make your own free website on Tripod.com


I compiled this from various bits and pieces here and there, and tidied
it all up.

i make to claims to any of these - i just compiled it.

Additions / corrections etc gratefully received.

Tony Bowden



                                    Saints

Intro:
        -------------------------
        -------------------------
        -----------11------------
        ----8-9-11---------------
        --9----------------------
        -------------------------

Verse:
        B C#   F#
        I like all the different people
        B C#   F#
        I like sticky everywhere
        C#               F#
        Look around  you bet I'll be there


Chorus:
        just arpeggiate the F# and C# barre chords,

          (summer's ready)
        F#
        --------9----------------9------------------
        ----11------11-------11------11-------------
        ------11--11--11-------11--11--11-----------
        --11---------------11-----------------------
        --------------------------------------------
        --------------------------------------------

        Summer is ready     when you are
        C#                 F#
        -------------------------9------------------
        -------9-------------11-------11------------
        ---10----10--10--------11---11--11----------
        -----11----11------11-----------------------
        --9-----------------------------------------
        --------------------------------------------

Solo:
        variations of:

        -------------------------
        -------------------------
        -----------11------------
        ----8-9-11-------9-8-----
        --9-------------------9--
        -------------------------


        -------------------------
        -------------------------
        -----------9-------------
        ----8-9-11-------9-8-----
        --9-------------------9--
        -------------------------



                            Saints
                                                                      
|------------------------------------------------------------------------
|------------------------------------------------------------------------
|-----------------------6-7-----------6-7------6-7-----6-7-----6-7-------
|---------5-------------6-7-----------6-7------6-7-----6-7-----6-7-------
|---4-5-7-----5-4-------4-5-----------4-5------4-5-----4-5-----4-5-------
|-5---------------5------------------------------------------------------

                                                                      
|------------------------------------------------------------------------
|------------------------------------------------------------------------
|----------------------------------------------------67-------67-99999---
|---------7--------------------------5--------777777-67-77777-67-99999---
|---4-5-7-----7-5-5p4h5p4------4-5-7----5-4---777777-45-77777-45-77777---
|-5----------------------5---5--------------5-555555----55555------------
                                                                      
                                                                      
|--------9----------------9---------------7-------9--9--9--9--9----------
|---10-----10-10-----10-----10-10-----8-----8-8---10-10-10-10-10---------
|-9----9---------9-9----9---------9-7---7-------7-9--9--9--9--9----------
|------------------------------------------------------------------------
|------------------------------------------------------------------------
|------------------------------------------------------------------------

                                                                      
|------------------------------------------------------------------------
|------------------------------------------------------------------------
|---------7--------------------------------------------------------------
|------------------------------------------------------------------------
|---4-5-7----7-5-5p4h5p4-------------------------------------------------
|-5---------------------5------------------------------------------------